5ちゃんねる ★スマホ版★ ■掲示板に戻る■ 全部 1- 最新50  

■ このスレッドは過去ログ倉庫に格納されています

【ギターフリークス】蛹をみんなで耳コピするスレ

1 :ドレミファ名無シド:02/12/03 19:50 ID:dODsCXR8
楽器・作曲板にも蛹ファンがいるはず!
みんなでガンガッテ耳コピしよぜ!

2 :ドレミファ名無シド:02/12/03 20:18 ID:???
何それ?

3 :ドレミファ名無シド:02/12/03 20:32 ID:REw67tYK
禿しくガイシュツ

4 :3:02/12/06 00:48 ID:RB0WasNh
面白そうだから保守age

5 :ドレミファ名無シド:02/12/06 01:07 ID:???
>>1
蛹の楽譜がなんかあったら漏れが欲しい位だね

前にソロだけ微妙に聞き取った香具師置いてます
↓900位に
http://music.2ch.net/test/read.cgi/compose/1013738207/





6 :ドレミファ名無シド:02/12/06 15:53 ID:aieLp4W2
saage

7 :ドレミファ名無シド:02/12/06 16:11 ID:???
桶を耳コピするのもけっこう大変。

8 :ドレミファ名無シド:02/12/06 22:32 ID:HU1qrdq2
音源うぷきぼん

9 :ドレミファ名無シド:02/12/07 15:29 ID:VEjFoXxU
k

10 :ドレミファ名無シド:02/12/08 03:17 ID:???
ttp://zoo.millto.net/~waru/drumfile/BOBBY_SUE_AND_SKINNY_JIM.mp3.mp3

11 :ドレミファ名無シド:02/12/08 22:33 ID:aKNORSLM
>>1
どこいったんだ?

12 :ドレミファ名無シド:02/12/09 11:45 ID:CF7t0/6Q
良スレですね

13 :ドレミファ名無シド:02/12/10 23:40 ID:???
fっd

14 :ドレミファ名無シド:02/12/11 22:41 ID:???
dff

15 :あさ麒麟:02/12/12 10:01 ID:???
|-0---------1-0---|-0---------1-0---|
|---0-2-1-0-----1-|---0-2-1-0-----1-|
半音sage…?スマソ音源無くゲーセンでしか聴けないんで分かりません

16 :あさ麒麟:02/12/12 10:03 ID:???
おっと、>>15のタブは5、6弦でつ。
って言わなくても分かるか…

17 :ドレミファ名無シド:02/12/12 17:14 ID:???


18 :1:02/12/12 18:58 ID:???
イントロのギターのチャッラチャッチャッチャチャッ!てとこです。(カナリマチガッテル…
-55-5-6-6-5-55-555-55-5-6-6-4-4-4-----3弦
-77-7-7-7-7-77-777-77-7-7-7-6-6-6-----4弦

19 :あさ麒麟:02/12/12 20:53 ID:???
|-----------------|-----------------|-----------------|------------------|
|-----------------|-----------------|-----------------|------------------|
|-----------------|-----------------|-----------------|------------------|
|-----------------|-----------------|-----------------|------------------|
|-x-x-7-7-x-x-8-7-|-x-x-7-7-x-6-x-6-|-x-x-7-7-x-x-8-7-|---6---6---6---6--|
|-x-x-5-5-x-x-6-5-|-x-x-5-5-x-4-x-4-|-x-x-5-5-x-x-6-5-|---4---4---4---4--|

>>18
多分同じトコ。漏れはこんな風にしますた。
…パワーコードが好きなのです。

20 :あさ麒麟:02/12/12 21:00 ID:???
|-----------------|-----------------|-----------------|-----------------|
|-----------------|-----------------|-----------------|-----------------|
|-----------------|-----------------|-----------------|-----------------|
|-----------------|-----------------|-----------------|-----------------|
|-0---------1-0---|-0---------1-0---|-0---------1-0---|-0---0-----------|
|---0-2-1-0-----1-|---0-2-1-0-----1-|---0-2-1-0-----1-|---0---0-x-1-x-1-|


|-----------------|-----------------|-----------------|------------------|
|-----------------|-----------------|-----------------|------------------|
|-----------------|-----------------|-----------------|------------------|
|-----------------|-----------------|-----------------|------------------|
|-x-x-7-7-x-x-8-7-|-x-x-7-7-x-6-x-6-|-x-x-7-7-x-x-8-7-|---6---6---6---6--|
|-x-x-5-5-x-x-6-5-|-x-x-5-5-x-4-x-4-|-x-x-5-5-x-x-6-5-|---4---4---4---4--|

微妙にズレてたんでもう一度。
ちゃんと出来たかな?
イントロです。
次のソロっぽいトコがムズイ…

21 :あさ麒麟:02/12/12 21:13 ID:???
えーっと頑張ってたんですがギター歴1年未満の漏れには無理のようです。

でも、運良く部分的にでも耳コピできたらまたうぷします。。

22 :ドレミファ名無シド:02/12/12 21:24 ID:???
音源用意したほうが良いのではなかろうか?

23 :あさ麒麟:02/12/13 12:45 ID:???
ttp://mc6800.dyn.dhs.org/UP_LOADER/UPFTP/IMG/MC6800P_1607.mp3

音源入手したんでうpしてみました。(ってかサントラ買いますた
…うぷろだ使わずにHPレンタルスペースにうpした方が良かったかなぁと後悔。

肝心の耳コピ、漏れが上に打ったのはかなり間違いみたいで…激しくスマソ

24 :ドレミファ名無シド:02/12/14 05:29 ID:???
>>23
曲聞いて確認してないけど、そんな間違ってるかな?
なかなか楽しめたでつ
サンキスコ

25 :ドレミファ名無シド:02/12/15 14:18 ID:???
gb

26 :1:02/12/15 14:43 ID:???
メロの所の音がよく解らない…鬱

27 :1:02/12/15 19:29 ID:???
>>19
その続きコピってみました。今度のは結構あってると思います。。。
[-〜9---10--12--10--9--9-8-7-5--〜9--8-5-4--9-8-5-4--2-4-5--4--10-9-]3弦
※〜はスライドです。
この続きがわからない…鬱

28 :あさ麒麟:02/12/16 12:49 ID:???
この前に書き込んだパワーコードのトコ、Am→A#m→G#mって感じで、1.2.3弦も弾くといい感じです。

>>27
最近そこをやってたんですが、凄く難しい…
って事でサンキスコです

29 :ドレミファ名無シド:02/12/19 08:24 ID:???
dftg

30 :ドレミファ名無シド:02/12/19 12:54 ID:???
保守

31 :ドレミファ名無シド:02/12/21 14:30 ID:???
t5えr

32 :ドレミファ名無シド:02/12/23 14:47 ID:???
78uy

33 :ドレミファ名無シド:02/12/27 23:18 ID:???
いおお

34 :ドレミファ名無シド:02/12/29 14:01 ID:lR8F5PFD
gh

6 KB
■ このスレッドは過去ログ倉庫に格納されています

★スマホ版★ 掲示板に戻る 全部 前100 次100 最新50

read.cgi ver 05.04.00 2017/10/04 Walang Kapalit ★
FOX ★ DSO(Dynamic Shared Object)